ISO-10303-21;
HEADER;
/* Generated by software containing ST-Developer
 * from STEP Tools, Inc. (www.steptools.com) 
 */

FILE_DESCRIPTION(
/* description */ (''),
/* implementation_level */ '2;1');

FILE_NAME(
/* name */ 
'Q:\\Ric010\\FF7\\FIPlastiCAD\\FIP\\Lavoro\\PVC Fittings\\PVC Fittings
 STEP\\TRIV\\TRIV160110.ipt.stp',
/* time_stamp */ '2013-10-01T14:57:01+02:00',
/* author */ ('bfaro'),
/* organization */ (''),
/* preprocessor_version */ 'ST-DEVELOPER v15.2',
/* originating_system */ 'Autodesk Inventor 2014',
/* authorisation */ '');

FILE_SCHEMA (('AUTOMOTIVE_DESIGN { 1 0 10303 214 3 1 1 }'));
ENDSEC;

DATA;
#10=SHAPE_REPRESENTATION_RELATIONSHIP('SRR','None',#427,#11);
#11=ADVANCED_BREP_SHAPE_REPRESENTATION($,(#166),#418);
#12=STYLED_ITEM($,(#435),#166);
#13=B_SPLINE_CURVE_WITH_KNOTS($,3,(#272,#273,#274,#275,#276,#277,#278,#279,
#280,#281,#282,#283,#284,#285,#286,#287,#288,#289,#290,#291,#292,#293,#294,
#295,#296,#297,#298,#299,#300,#301,#302,#303,#304,#305,#306,#307,#308,#309,
#310,#311,#312,#313,#314,#315,#316,#317,#318,#319,#320,#321,#322,#323,#324,
#325,#326,#327,#328,#329,#330,#331,#332,#333,#334,#335,#336,#337),
 .UNSPECIFIED.,.T.,.F.,(4,2,2,2,2,2,2,2,2,2,2,2,2,2,2,2,2,2,2,2,2,2,2,2,
2,2,2,2,2,2,2,2,4),(0.,1.06906495587082,2.13812991174163,3.20719486761245,
4.27625982348326,5.33190191980963,6.387544016136,7.44318611246237,8.49882820878874,
9.55447030511511,10.6101124014415,11.6657544977678,12.7213965940942,13.790461549965,
14.8595265058358,15.9285914617067,16.9976564175775,18.0667213734483,19.1357863293191,
20.2048512851899,21.2739162410607,22.3295583373871,23.3852004337135,24.4408425300398,
25.4964846263662,26.5521267226926,27.607768819019,28.6634109153453,29.7190530116717,
30.7881179675425,31.8571829234133,32.9262478792841,33.9953128351549),
 .UNSPECIFIED.);
#14=B_SPLINE_CURVE_WITH_KNOTS($,3,(#343,#344,#345,#346,#347,#348,#349,#350,
#351,#352,#353,#354,#355,#356,#357,#358,#359,#360,#361,#362,#363,#364,#365,
#366,#367,#368,#369,#370,#371,#372,#373,#374,#375,#376,#377,#378,#379,#380,
#381,#382,#383,#384,#385,#386,#387,#388,#389,#390,#391,#392,#393,#394,#395,
#396,#397,#398,#399,#400,#401,#402,#403,#404,#405,#406,#407,#408),
 .UNSPECIFIED.,.T.,.F.,(4,2,2,2,2,2,2,2,2,2,2,2,2,2,2,2,2,2,2,2,2,2,2,2,
2,2,2,2,2,2,2,2,4),(0.,1.30182817207707,2.60365634415413,3.9054845162312,
5.20731268830826,6.4904830168254,7.77365334534254,9.05682367385968,10.3399940023768,
11.623164330894,12.9063346594111,14.1895049879282,15.4726753164454,16.7745034885224,
18.0763316605995,19.3781598326766,20.6799880047536,21.9818161768307,23.2836443489078,
24.5854725209848,25.8873006930619,27.170471021579,28.4536413500962,29.7368116786133,
31.0199820071305,32.3031523356476,33.5863226641647,34.8694929926819,36.152663321199,
37.4544914932761,38.7563196653531,40.0581478374302,41.3599760095073),
 .UNSPECIFIED.);
#15=PLANE($,#171);
#16=PLANE($,#176);
#17=PLANE($,#181);
#18=PLANE($,#187);
#19=PLANE($,#191);
#20=PLANE($,#192);
#21=FACE_BOUND($,#50,.T.);
#22=FACE_BOUND($,#51,.T.);
#23=FACE_BOUND($,#52,.T.);
#24=FACE_BOUND($,#54,.T.);
#25=FACE_BOUND($,#55,.T.);
#26=FACE_BOUND($,#56,.T.);
#27=FACE_BOUND($,#58,.T.);
#28=FACE_BOUND($,#59,.T.);
#29=FACE_BOUND($,#60,.T.);
#30=FACE_BOUND($,#62,.T.);
#31=FACE_BOUND($,#64,.T.);
#32=FACE_BOUND($,#65,.T.);
#33=FACE_BOUND($,#67,.T.);
#34=FACE_BOUND($,#68,.T.);
#35=FACE_BOUND($,#69,.T.);
#36=FACE_BOUND($,#70,.T.);
#37=FACE_BOUND($,#71,.T.);
#38=FACE_BOUND($,#72,.T.);
#39=FACE_BOUND($,#73,.T.);
#40=FACE_BOUND($,#74,.T.);
#41=FACE_BOUND($,#75,.T.);
#42=FACE_BOUND($,#76,.T.);
#43=FACE_OUTER_BOUND($,#49,.T.);
#44=FACE_OUTER_BOUND($,#53,.T.);
#45=FACE_OUTER_BOUND($,#57,.T.);
#46=FACE_OUTER_BOUND($,#61,.T.);
#47=FACE_OUTER_BOUND($,#63,.T.);
#48=FACE_OUTER_BOUND($,#66,.T.);
#49=EDGE_LOOP($,(#117));
#50=EDGE_LOOP($,(#118));
#51=EDGE_LOOP($,(#119));
#52=EDGE_LOOP($,(#120));
#53=EDGE_LOOP($,(#121));
#54=EDGE_LOOP($,(#122));
#55=EDGE_LOOP($,(#123));
#56=EDGE_LOOP($,(#124));
#57=EDGE_LOOP($,(#125));
#58=EDGE_LOOP($,(#126));
#59=EDGE_LOOP($,(#127));
#60=EDGE_LOOP($,(#128));
#61=EDGE_LOOP($,(#129));
#62=EDGE_LOOP($,(#130));
#63=EDGE_LOOP($,(#131));
#64=EDGE_LOOP($,(#132));
#65=EDGE_LOOP($,(#133));
#66=EDGE_LOOP($,(#134));
#67=EDGE_LOOP($,(#135));
#68=EDGE_LOOP($,(#136));
#69=EDGE_LOOP($,(#137));
#70=EDGE_LOOP($,(#138));
#71=EDGE_LOOP($,(#139));
#72=EDGE_LOOP($,(#140));
#73=EDGE_LOOP($,(#141));
#74=EDGE_LOOP($,(#142));
#75=EDGE_LOOP($,(#143));
#76=EDGE_LOOP($,(#144));
#77=CIRCLE($,#169,80.);
#78=CIRCLE($,#170,80.);
#79=CIRCLE($,#172,79.);
#80=CIRCLE($,#174,80.);
#81=CIRCLE($,#175,80.);
#82=CIRCLE($,#177,79.);
#83=CIRCLE($,#179,55.);
#84=CIRCLE($,#180,55.);
#85=CIRCLE($,#182,54.);
#86=CIRCLE($,#186,65.5);
#87=CIRCLE($,#189,93.5);
#88=CIRCLE($,#190,93.5);
#89=VERTEX_POINT($,#247);
#90=VERTEX_POINT($,#249);
#91=VERTEX_POINT($,#252);
#92=VERTEX_POINT($,#255);
#93=VERTEX_POINT($,#257);
#94=VERTEX_POINT($,#260);
#95=VERTEX_POINT($,#263);
#96=VERTEX_POINT($,#265);
#97=VERTEX_POINT($,#268);
#98=VERTEX_POINT($,#271);
#99=VERTEX_POINT($,#340);
#100=VERTEX_POINT($,#342);
#101=VERTEX_POINT($,#411);
#102=VERTEX_POINT($,#413);
#103=EDGE_CURVE($,#89,#89,#77,.T.);
#104=EDGE_CURVE($,#90,#90,#78,.T.);
#105=EDGE_CURVE($,#91,#91,#79,.T.);
#106=EDGE_CURVE($,#92,#92,#80,.T.);
#107=EDGE_CURVE($,#93,#93,#81,.T.);
#108=EDGE_CURVE($,#94,#94,#82,.T.);
#109=EDGE_CURVE($,#95,#95,#83,.T.);
#110=EDGE_CURVE($,#96,#96,#84,.T.);
#111=EDGE_CURVE($,#97,#97,#85,.T.);
#112=EDGE_CURVE($,#98,#98,#13,.T.);
#113=EDGE_CURVE($,#99,#99,#86,.T.);
#114=EDGE_CURVE($,#100,#100,#14,.T.);
#115=EDGE_CURVE($,#101,#101,#87,.T.);
#116=EDGE_CURVE($,#102,#102,#88,.T.);
#117=ORIENTED_EDGE($,*,*,#103,.F.);
#118=ORIENTED_EDGE($,*,*,#104,.F.);
#119=ORIENTED_EDGE($,*,*,#105,.F.);
#120=ORIENTED_EDGE($,*,*,#103,.T.);
#121=ORIENTED_EDGE($,*,*,#106,.T.);
#122=ORIENTED_EDGE($,*,*,#107,.F.);
#123=ORIENTED_EDGE($,*,*,#108,.F.);
#124=ORIENTED_EDGE($,*,*,#106,.F.);
#125=ORIENTED_EDGE($,*,*,#109,.T.);
#126=ORIENTED_EDGE($,*,*,#110,.F.);
#127=ORIENTED_EDGE($,*,*,#111,.F.);
#128=ORIENTED_EDGE($,*,*,#109,.F.);
#129=ORIENTED_EDGE($,*,*,#111,.T.);
#130=ORIENTED_EDGE($,*,*,#112,.F.);
#131=ORIENTED_EDGE($,*,*,#105,.T.);
#132=ORIENTED_EDGE($,*,*,#108,.T.);
#133=ORIENTED_EDGE($,*,*,#112,.T.);
#134=ORIENTED_EDGE($,*,*,#113,.F.);
#135=ORIENTED_EDGE($,*,*,#114,.F.);
#136=ORIENTED_EDGE($,*,*,#110,.T.);
#137=ORIENTED_EDGE($,*,*,#113,.T.);
#138=ORIENTED_EDGE($,*,*,#114,.T.);
#139=ORIENTED_EDGE($,*,*,#115,.F.);
#140=ORIENTED_EDGE($,*,*,#116,.T.);
#141=ORIENTED_EDGE($,*,*,#104,.T.);
#142=ORIENTED_EDGE($,*,*,#115,.T.);
#143=ORIENTED_EDGE($,*,*,#107,.T.);
#144=ORIENTED_EDGE($,*,*,#116,.F.);
#145=CYLINDRICAL_SURFACE($,#168,80.);
#146=CYLINDRICAL_SURFACE($,#173,80.);
#147=CYLINDRICAL_SURFACE($,#178,55.);
#148=CYLINDRICAL_SURFACE($,#183,54.);
#149=CYLINDRICAL_SURFACE($,#184,79.);
#150=CYLINDRICAL_SURFACE($,#185,65.5);
#151=CYLINDRICAL_SURFACE($,#188,93.5);
#152=ADVANCED_FACE($,(#43,#21),#145,.F.);
#153=ADVANCED_FACE($,(#22,#23),#15,.F.);
#154=ADVANCED_FACE($,(#44,#24),#146,.F.);
#155=ADVANCED_FACE($,(#25,#26),#16,.T.);
#156=ADVANCED_FACE($,(#45,#27),#147,.F.);
#157=ADVANCED_FACE($,(#28,#29),#17,.T.);
#158=ADVANCED_FACE($,(#46,#30),#148,.F.);
#159=ADVANCED_FACE($,(#47,#31,#32),#149,.F.);
#160=ADVANCED_FACE($,(#48,#33),#150,.T.);
#161=ADVANCED_FACE($,(#34,#35),#18,.T.);
#162=ADVANCED_FACE($,(#36,#37,#38),#151,.T.);
#163=ADVANCED_FACE($,(#39,#40),#19,.T.);
#164=ADVANCED_FACE($,(#41,#42),#20,.T.);
#165=CLOSED_SHELL($,(#152,#153,#154,#155,#156,#157,#158,#159,#160,#161,
#162,#163,#164));
#166=MANIFOLD_SOLID_BREP('Solido1',#165);
#167=AXIS2_PLACEMENT_3D('placement',#245,#193,#194);
#168=AXIS2_PLACEMENT_3D($,#246,#195,#196);
#169=AXIS2_PLACEMENT_3D($,#248,#197,#198);
#170=AXIS2_PLACEMENT_3D($,#250,#199,#200);
#171=AXIS2_PLACEMENT_3D($,#251,#201,#202);
#172=AXIS2_PLACEMENT_3D($,#253,#203,#204);
#173=AXIS2_PLACEMENT_3D($,#254,#205,#206);
#174=AXIS2_PLACEMENT_3D($,#256,#207,#208);
#175=AXIS2_PLACEMENT_3D($,#258,#209,#210);
#176=AXIS2_PLACEMENT_3D($,#259,#211,#212);
#177=AXIS2_PLACEMENT_3D($,#261,#213,#214);
#178=AXIS2_PLACEMENT_3D($,#262,#215,#216);
#179=AXIS2_PLACEMENT_3D($,#264,#217,#218);
#180=AXIS2_PLACEMENT_3D($,#266,#219,#220);
#181=AXIS2_PLACEMENT_3D($,#267,#221,#222);
#182=AXIS2_PLACEMENT_3D($,#269,#223,#224);
#183=AXIS2_PLACEMENT_3D($,#270,#225,#226);
#184=AXIS2_PLACEMENT_3D($,#338,#227,#228);
#185=AXIS2_PLACEMENT_3D($,#339,#229,#230);
#186=AXIS2_PLACEMENT_3D($,#341,#231,#232);
#187=AXIS2_PLACEMENT_3D($,#409,#233,#234);
#188=AXIS2_PLACEMENT_3D($,#410,#235,#236);
#189=AXIS2_PLACEMENT_3D($,#412,#237,#238);
#190=AXIS2_PLACEMENT_3D($,#414,#239,#240);
#191=AXIS2_PLACEMENT_3D($,#415,#241,#242);
#192=AXIS2_PLACEMENT_3D($,#416,#243,#244);
#193=DIRECTION('axis',(0.,0.,1.));
#194=DIRECTION('refdir',(1.,0.,0.));
#195=DIRECTION('center_axis',(0.,0.,-1.));
#196=DIRECTION('ref_axis',(-1.,0.,0.));
#197=DIRECTION('center_axis',(0.,0.,-1.));
#198=DIRECTION('ref_axis',(-1.,0.,0.));
#199=DIRECTION('center_axis',(0.,0.,1.));
#200=DIRECTION('ref_axis',(-1.,0.,0.));
#201=DIRECTION('center_axis',(0.,0.,1.));
#202=DIRECTION('ref_axis',(1.,0.,0.));
#203=DIRECTION('center_axis',(0.,0.,-1.));
#204=DIRECTION('ref_axis',(-1.,0.,0.));
#205=DIRECTION('center_axis',(0.,0.,-1.));
#206=DIRECTION('ref_axis',(-1.,0.,0.));
#207=DIRECTION('center_axis',(0.,0.,-1.));
#208=DIRECTION('ref_axis',(-1.,0.,0.));
#209=DIRECTION('center_axis',(0.,0.,-1.));
#210=DIRECTION('ref_axis',(-1.,0.,0.));
#211=DIRECTION('center_axis',(0.,0.,1.));
#212=DIRECTION('ref_axis',(1.,0.,0.));
#213=DIRECTION('center_axis',(0.,0.,1.));
#214=DIRECTION('ref_axis',(-1.,0.,0.));
#215=DIRECTION('center_axis',(0.,-1.,0.));
#216=DIRECTION('ref_axis',(-1.,0.,0.));
#217=DIRECTION('center_axis',(0.,-1.,0.));
#218=DIRECTION('ref_axis',(-1.,0.,0.));
#219=DIRECTION('center_axis',(0.,-1.,0.));
#220=DIRECTION('ref_axis',(-1.,0.,0.));
#221=DIRECTION('center_axis',(0.,1.,0.));
#222=DIRECTION('ref_axis',(0.,0.,1.));
#223=DIRECTION('center_axis',(0.,1.,0.));
#224=DIRECTION('ref_axis',(-1.,0.,0.));
#225=DIRECTION('center_axis',(0.,-1.,0.));
#226=DIRECTION('ref_axis',(-1.,0.,0.));
#227=DIRECTION('center_axis',(0.,0.,-1.));
#228=DIRECTION('ref_axis',(-1.,0.,0.));
#229=DIRECTION('center_axis',(0.,1.,0.));
#230=DIRECTION('ref_axis',(1.,0.,0.));
#231=DIRECTION('center_axis',(0.,1.,0.));
#232=DIRECTION('ref_axis',(1.,0.,0.));
#233=DIRECTION('center_axis',(0.,1.,0.));
#234=DIRECTION('ref_axis',(0.,0.,1.));
#235=DIRECTION('center_axis',(0.,0.,-1.));
#236=DIRECTION('ref_axis',(0.,1.,0.));
#237=DIRECTION('center_axis',(0.,0.,-1.));
#238=DIRECTION('ref_axis',(0.,1.,0.));
#239=DIRECTION('center_axis',(0.,0.,-1.));
#240=DIRECTION('ref_axis',(0.,1.,0.));
#241=DIRECTION('center_axis',(0.,0.,-1.));
#242=DIRECTION('ref_axis',(-1.,0.,0.));
#243=DIRECTION('center_axis',(0.,0.,1.));
#244=DIRECTION('ref_axis',(1.,0.,0.));
#245=CARTESIAN_POINT('',(0.,0.,0.));
#246=CARTESIAN_POINT('Origin',(0.,0.,0.));
#247=CARTESIAN_POINT('',(80.,9.79717439317883E-015,86.));
#248=CARTESIAN_POINT('Origin',(0.,0.,86.));
#249=CARTESIAN_POINT('',(80.,9.79717439317883E-015,0.));
#250=CARTESIAN_POINT('Origin',(0.,0.,0.));
#251=CARTESIAN_POINT('Origin',(-3.77702593176532E-015,1.48029736616688E-015,
86.));
#252=CARTESIAN_POINT('',(79.,-9.67470971326409E-015,86.));
#253=CARTESIAN_POINT('Origin',(0.,0.,86.));
#254=CARTESIAN_POINT('Origin',(0.,0.,286.));
#255=CARTESIAN_POINT('',(80.,9.79717439317883E-015,200.));
#256=CARTESIAN_POINT('Origin',(0.,0.,200.));
#257=CARTESIAN_POINT('',(80.,9.79717439317883E-015,286.));
#258=CARTESIAN_POINT('Origin',(0.,0.,286.));
#259=CARTESIAN_POINT('Origin',(-3.77702593176532E-015,1.48029736616688E-015,
200.));
#260=CARTESIAN_POINT('',(79.,9.67470971326409E-015,200.));
#261=CARTESIAN_POINT('Origin',(0.,0.,200.));
#262=CARTESIAN_POINT('Origin',(0.,143.,143.));
#263=CARTESIAN_POINT('',(55.,82.,143.));
#264=CARTESIAN_POINT('Origin',(0.,82.,143.));
#265=CARTESIAN_POINT('',(55.,143.,143.));
#266=CARTESIAN_POINT('Origin',(0.,143.,143.));
#267=CARTESIAN_POINT('Origin',(-2.71445625494284E-015,82.,143.));
#268=CARTESIAN_POINT('',(54.,82.,143.));
#269=CARTESIAN_POINT('Origin',(0.,82.,143.));
#270=CARTESIAN_POINT('Origin',(0.,143.,143.));
#271=CARTESIAN_POINT('',(-54.,57.662812973354,143.));
#272=CARTESIAN_POINT('Ctrl Pts',(-54.,57.662812973354,143.));
#273=CARTESIAN_POINT('Ctrl Pts',(-54.,57.662812973354,146.563549852903));
#274=CARTESIAN_POINT('Ctrl Pts',(-53.6426396894154,58.0034275414014,150.175980769043));
#275=CARTESIAN_POINT('Ctrl Pts',(-52.2104455977978,59.2958662978115,157.251206054662));
#276=CARTESIAN_POINT('Ctrl Pts',(-51.1364916695497,60.2433357496038,160.714973280682));
#277=CARTESIAN_POINT('Ctrl Pts',(-48.3572391816679,62.4962158274845,167.296900294783));
#278=CARTESIAN_POINT('Ctrl Pts',(-46.6495503180583,63.8000619342156,170.422054623472));
#279=CARTESIAN_POINT('Ctrl Pts',(-42.7370004436508,66.4844135144134,176.191842652025));
#280=CARTESIAN_POINT('Ctrl Pts',(-40.5310382314014,67.8632753510663,178.836494136746));
#281=CARTESIAN_POINT('Ctrl Pts',(-35.8659657818791,70.4389260455164,183.501566586268));
#282=CARTESIAN_POINT('Ctrl Pts',(-33.2373419806152,71.7359633166919,185.70189793091));
#283=CARTESIAN_POINT('Ctrl Pts',(-27.4659288106069,74.1376563520048,189.623982502745));
#284=CARTESIAN_POINT('Ctrl Pts',(-24.3227498507323,75.2410109685889,191.345959078507));
#285=CARTESIAN_POINT('Ctrl Pts',(-17.6982930010286,77.0686471547571,194.143899488337));
#286=CARTESIAN_POINT('Ctrl Pts',(-14.2098783243448,77.7938197597105,195.222171265872));
#287=CARTESIAN_POINT('Ctrl Pts',(-7.12023234967866,78.7597697188892,196.650518218404));
#288=CARTESIAN_POINT('Ctrl Pts',(-3.51880698775457,79.,197.));
#289=CARTESIAN_POINT('Ctrl Pts',(3.51880698775456,79.,197.));
#290=CARTESIAN_POINT('Ctrl Pts',(7.12023234967866,78.7597697188892,196.650518218404));
#291=CARTESIAN_POINT('Ctrl Pts',(14.2098783243448,77.7938197597105,195.222171265872));
#292=CARTESIAN_POINT('Ctrl Pts',(17.6982930010286,77.0686471547571,194.143899488337));
#293=CARTESIAN_POINT('Ctrl Pts',(24.3227498507323,75.2410109685889,191.345959078507));
#294=CARTESIAN_POINT('Ctrl Pts',(27.4659288106069,74.1376563520048,189.623982502745));
#295=CARTESIAN_POINT('Ctrl Pts',(33.2373419806152,71.7359633166919,185.70189793091));
#296=CARTESIAN_POINT('Ctrl Pts',(35.8659657818791,70.4389260455165,183.501566586268));
#297=CARTESIAN_POINT('Ctrl Pts',(40.5310382314014,67.8632753510663,178.836494136746));
#298=CARTESIAN_POINT('Ctrl Pts',(42.7370004436508,66.4844135144134,176.191842652025));
#299=CARTESIAN_POINT('Ctrl Pts',(46.6495503180583,63.8000619342156,170.422054623472));
#300=CARTESIAN_POINT('Ctrl Pts',(48.3572391816679,62.4962158274845,167.296900294783));
#301=CARTESIAN_POINT('Ctrl Pts',(51.1364916695497,60.2433357496038,160.714973280682));
#302=CARTESIAN_POINT('Ctrl Pts',(52.2104455977978,59.2958662978115,157.251206054662));
#303=CARTESIAN_POINT('Ctrl Pts',(53.6426396894154,58.0034275414014,150.175980769043));
#304=CARTESIAN_POINT('Ctrl Pts',(54.,57.662812973354,146.563549852903));
#305=CARTESIAN_POINT('Ctrl Pts',(54.,57.662812973354,139.436450147097));
#306=CARTESIAN_POINT('Ctrl Pts',(53.6426396894154,58.0034275414014,135.824019230957));
#307=CARTESIAN_POINT('Ctrl Pts',(52.2104455977978,59.2958662978115,128.748793945338));
#308=CARTESIAN_POINT('Ctrl Pts',(51.1364916695497,60.2433357496038,125.285026719318));
#309=CARTESIAN_POINT('Ctrl Pts',(48.3572391816679,62.4962158274845,118.703099705217));
#310=CARTESIAN_POINT('Ctrl Pts',(46.6495503180583,63.8000619342156,115.577945376528));
#311=CARTESIAN_POINT('Ctrl Pts',(42.7370004436508,66.4844135144134,109.808157347975));
#312=CARTESIAN_POINT('Ctrl Pts',(40.5310382314014,67.8632753510663,107.163505863254));
#313=CARTESIAN_POINT('Ctrl Pts',(35.8659657818791,70.4389260455164,102.498433413732));
#314=CARTESIAN_POINT('Ctrl Pts',(33.2373419806152,71.7359633166919,100.29810206909));
#315=CARTESIAN_POINT('Ctrl Pts',(27.4659288106069,74.1376563520048,96.376017497255));
#316=CARTESIAN_POINT('Ctrl Pts',(24.3227498507323,75.2410109685889,94.6540409214926));
#317=CARTESIAN_POINT('Ctrl Pts',(17.6982930010286,77.0686471547571,91.856100511663));
#318=CARTESIAN_POINT('Ctrl Pts',(14.2098783243448,77.7938197597105,90.7778287341284));
#319=CARTESIAN_POINT('Ctrl Pts',(7.12023234967868,78.7597697188892,89.3494817815957));
#320=CARTESIAN_POINT('Ctrl Pts',(3.51880698775458,79.,89.));
#321=CARTESIAN_POINT('Ctrl Pts',(-3.51880698775456,79.,89.));
#322=CARTESIAN_POINT('Ctrl Pts',(-7.12023234967866,78.7597697188892,89.3494817815957));
#323=CARTESIAN_POINT('Ctrl Pts',(-14.2098783243448,77.7938197597105,90.7778287341284));
#324=CARTESIAN_POINT('Ctrl Pts',(-17.6982930010286,77.0686471547571,91.856100511663));
#325=CARTESIAN_POINT('Ctrl Pts',(-24.3227498507323,75.2410109685889,94.6540409214926));
#326=CARTESIAN_POINT('Ctrl Pts',(-27.4659288106069,74.1376563520048,96.376017497255));
#327=CARTESIAN_POINT('Ctrl Pts',(-33.2373419806152,71.7359633166919,100.29810206909));
#328=CARTESIAN_POINT('Ctrl Pts',(-35.8659657818791,70.4389260455165,102.498433413732));
#329=CARTESIAN_POINT('Ctrl Pts',(-40.5310382314014,67.8632753510663,107.163505863254));
#330=CARTESIAN_POINT('Ctrl Pts',(-42.7370004436508,66.4844135144134,109.808157347975));
#331=CARTESIAN_POINT('Ctrl Pts',(-46.6495503180583,63.8000619342156,115.577945376528));
#332=CARTESIAN_POINT('Ctrl Pts',(-48.3572391816679,62.4962158274845,118.703099705217));
#333=CARTESIAN_POINT('Ctrl Pts',(-51.1364916695497,60.2433357496038,125.285026719318));
#334=CARTESIAN_POINT('Ctrl Pts',(-52.2104455977978,59.2958662978115,128.748793945338));
#335=CARTESIAN_POINT('Ctrl Pts',(-53.6426396894154,58.0034275414014,135.824019230957));
#336=CARTESIAN_POINT('Ctrl Pts',(-54.,57.662812973354,139.436450147097));
#337=CARTESIAN_POINT('Ctrl Pts',(-54.,57.662812973354,143.));
#338=CARTESIAN_POINT('Origin',(0.,0.,286.));
#339=CARTESIAN_POINT('Origin',(0.,0.,143.));
#340=CARTESIAN_POINT('',(-65.5,143.,143.));
#341=CARTESIAN_POINT('Origin',(0.,143.,143.));
#342=CARTESIAN_POINT('',(65.5,66.7233092704491,143.));
#343=CARTESIAN_POINT('Ctrl Pts',(65.5,66.7233092704491,143.));
#344=CARTESIAN_POINT('Ctrl Pts',(65.5,66.7233092704491,147.339427240257));
#345=CARTESIAN_POINT('Ctrl Pts',(65.063380374338,67.15982119543,151.729177023708));
#346=CARTESIAN_POINT('Ctrl Pts',(63.321388497586,68.8047003596532,160.315997610045));
#347=CARTESIAN_POINT('Ctrl Pts',(62.017100571913,70.0071245985184,164.514425704507));
#348=CARTESIAN_POINT('Ctrl Pts',(58.6460226964987,72.8543841544075,172.489600441794));
#349=CARTESIAN_POINT('Ctrl Pts',(56.5762876238913,74.4972481156691,176.27476147674));
#350=CARTESIAN_POINT('Ctrl Pts',(51.8346372396854,77.8709617255702,183.264829018611));
#351=CARTESIAN_POINT('Ctrl Pts',(49.1613043899638,79.5999255252778,186.469683945474));
#352=CARTESIAN_POINT('Ctrl Pts',(43.5104701898238,82.8221924287162,192.120518145614));
#353=CARTESIAN_POINT('Ctrl Pts',(40.3280621899461,84.4414720816565,194.785795562551));
#354=CARTESIAN_POINT('Ctrl Pts',(33.3365925896905,87.4379002589386,199.540187637219));
#355=CARTESIAN_POINT('Ctrl Pts',(29.5270366348749,88.8134964824459,201.629553518372));
#356=CARTESIAN_POINT('Ctrl Pts',(21.493261095962,91.0918375670393,205.026690495177));
#357=CARTESIAN_POINT('Ctrl Pts',(17.2602855875349,91.9957561520283,206.337278151419));
#358=CARTESIAN_POINT('Ctrl Pts',(8.65239335438708,93.2001754178981,208.074298702277));
#359=CARTESIAN_POINT('Ctrl Pts',(4.27723442839047,93.5,208.5));
#360=CARTESIAN_POINT('Ctrl Pts',(-4.27723442839046,93.5,208.5));
#361=CARTESIAN_POINT('Ctrl Pts',(-8.65239335438707,93.2001754178981,208.074298702277));
#362=CARTESIAN_POINT('Ctrl Pts',(-17.2602855875349,91.9957561520283,206.337278151419));
#363=CARTESIAN_POINT('Ctrl Pts',(-21.493261095962,91.0918375670393,205.026690495177));
#364=CARTESIAN_POINT('Ctrl Pts',(-29.5270366348749,88.8134964824459,201.629553518372));
#365=CARTESIAN_POINT('Ctrl Pts',(-33.3365925896905,87.4379002589386,199.540187637219));
#366=CARTESIAN_POINT('Ctrl Pts',(-40.3280621899461,84.4414720816565,194.785795562551));
#367=CARTESIAN_POINT('Ctrl Pts',(-43.5104701898238,82.8221924287162,192.120518145614));
#368=CARTESIAN_POINT('Ctrl Pts',(-49.1613043899638,79.5999255252778,186.469683945474));
#369=CARTESIAN_POINT('Ctrl Pts',(-51.8346372396854,77.8709617255702,183.264829018611));
#370=CARTESIAN_POINT('Ctrl Pts',(-56.5762876238913,74.4972481156691,176.27476147674));
#371=CARTESIAN_POINT('Ctrl Pts',(-58.6460226964987,72.8543841544075,172.489600441794));
#372=CARTESIAN_POINT('Ctrl Pts',(-62.017100571913,70.0071245985184,164.514425704507));
#373=CARTESIAN_POINT('Ctrl Pts',(-63.321388497586,68.8047003596532,160.315997610045));
#374=CARTESIAN_POINT('Ctrl Pts',(-65.063380374338,67.15982119543,151.729177023708));
#375=CARTESIAN_POINT('Ctrl Pts',(-65.5,66.7233092704491,147.339427240257));
#376=CARTESIAN_POINT('Ctrl Pts',(-65.5,66.7233092704491,138.660572759743));
#377=CARTESIAN_POINT('Ctrl Pts',(-65.063380374338,67.15982119543,134.270822976292));
#378=CARTESIAN_POINT('Ctrl Pts',(-63.321388497586,68.8047003596532,125.684002389955));
#379=CARTESIAN_POINT('Ctrl Pts',(-62.017100571913,70.0071245985184,121.485574295493));
#380=CARTESIAN_POINT('Ctrl Pts',(-58.6460226964987,72.8543841544075,113.510399558207));
#381=CARTESIAN_POINT('Ctrl Pts',(-56.5762876238913,74.4972481156691,109.72523852326));
#382=CARTESIAN_POINT('Ctrl Pts',(-51.8346372396853,77.8709617255702,102.735170981389));
#383=CARTESIAN_POINT('Ctrl Pts',(-49.1613043899638,79.5999255252778,99.5303160545261));
#384=CARTESIAN_POINT('Ctrl Pts',(-43.5104701898238,82.8221924287162,93.8794818543861));
#385=CARTESIAN_POINT('Ctrl Pts',(-40.3280621899461,84.4414720816565,91.2142044374486));
#386=CARTESIAN_POINT('Ctrl Pts',(-33.3365925896905,87.4379002589386,86.459812362781));
#387=CARTESIAN_POINT('Ctrl Pts',(-29.5270366348749,88.8134964824459,84.3704464816277));
#388=CARTESIAN_POINT('Ctrl Pts',(-21.493261095962,91.0918375670393,80.9733095048231));
#389=CARTESIAN_POINT('Ctrl Pts',(-17.2602855875349,91.9957561520283,79.6627218485806));
#390=CARTESIAN_POINT('Ctrl Pts',(-8.65239335438708,93.2001754178981,77.9257012977227));
#391=CARTESIAN_POINT('Ctrl Pts',(-4.27723442839047,93.5,77.5));
#392=CARTESIAN_POINT('Ctrl Pts',(4.27723442839044,93.5,77.5));
#393=CARTESIAN_POINT('Ctrl Pts',(8.65239335438705,93.2001754178981,77.9257012977227));
#394=CARTESIAN_POINT('Ctrl Pts',(17.2602855875349,91.9957561520283,79.6627218485806));
#395=CARTESIAN_POINT('Ctrl Pts',(21.493261095962,91.0918375670393,80.9733095048231));
#396=CARTESIAN_POINT('Ctrl Pts',(29.5270366348749,88.8134964824459,84.3704464816277));
#397=CARTESIAN_POINT('Ctrl Pts',(33.3365925896905,87.4379002589386,86.459812362781));
#398=CARTESIAN_POINT('Ctrl Pts',(40.3280621899461,84.4414720816565,91.2142044374486));
#399=CARTESIAN_POINT('Ctrl Pts',(43.5104701898238,82.8221924287162,93.8794818543861));
#400=CARTESIAN_POINT('Ctrl Pts',(49.1613043899638,79.5999255252778,99.5303160545261));
#401=CARTESIAN_POINT('Ctrl Pts',(51.8346372396853,77.8709617255702,102.735170981389));
#402=CARTESIAN_POINT('Ctrl Pts',(56.5762876238913,74.4972481156691,109.72523852326));
#403=CARTESIAN_POINT('Ctrl Pts',(58.6460226964987,72.8543841544075,113.510399558207));
#404=CARTESIAN_POINT('Ctrl Pts',(62.0171005719129,70.0071245985184,121.485574295493));
#405=CARTESIAN_POINT('Ctrl Pts',(63.321388497586,68.8047003596532,125.684002389955));
#406=CARTESIAN_POINT('Ctrl Pts',(65.063380374338,67.15982119543,134.270822976292));
#407=CARTESIAN_POINT('Ctrl Pts',(65.5,66.7233092704491,138.660572759743));
#408=CARTESIAN_POINT('Ctrl Pts',(65.5,66.7233092704491,143.));
#409=CARTESIAN_POINT('Origin',(4.28444661074376E-015,143.,143.));
#410=CARTESIAN_POINT('Origin',(0.,0.,143.));
#411=CARTESIAN_POINT('',(0.,93.5,0.));
#412=CARTESIAN_POINT('Origin',(0.,0.,0.));
#413=CARTESIAN_POINT('',(0.,93.5,286.));
#414=CARTESIAN_POINT('Origin',(0.,0.,286.));
#415=CARTESIAN_POINT('Origin',(0.,46.75,0.));
#416=CARTESIAN_POINT('Origin',(0.,46.75,286.));
#417=UNCERTAINTY_MEASURE_WITH_UNIT(LENGTH_MEASURE(0.01),#419,
'DISTANCE_ACCURACY_VALUE',
'Maximum model space distance between geometric entities at asserted c
onnectivities');
#418=(
GEOMETRIC_REPRESENTATION_CONTEXT(3)
GLOBAL_UNCERTAINTY_ASSIGNED_CONTEXT((#417))
GLOBAL_UNIT_ASSIGNED_CONTEXT((#419,#422,#420))
REPRESENTATION_CONTEXT('','3D')
);
#419=(
LENGTH_UNIT()
NAMED_UNIT(*)
SI_UNIT(.MILLI.,.METRE.)
);
#420=(
NAMED_UNIT(*)
SI_UNIT($,.STERADIAN.)
SOLID_ANGLE_UNIT()
);
#421=DIMENSIONAL_EXPONENTS(0.,0.,0.,0.,0.,0.,0.);
#422=(
CONVERSION_BASED_UNIT('degree',#424)
NAMED_UNIT(#421)
PLANE_ANGLE_UNIT()
);
#423=(
NAMED_UNIT(*)
PLANE_ANGLE_UNIT()
SI_UNIT($,.RADIAN.)
);
#424=PLANE_ANGLE_MEASURE_WITH_UNIT(PLANE_ANGLE_MEASURE(0.01745329252),#423);
#425=SHAPE_DEFINITION_REPRESENTATION(#426,#427);
#426=PRODUCT_DEFINITION_SHAPE('',$,#429);
#427=SHAPE_REPRESENTATION('',(#167),#418);
#428=PRODUCT_DEFINITION_CONTEXT('3D Mechanical Parts',#432,'design');
#429=PRODUCT_DEFINITION('TRIV160110','TRIV160110',#430,#428);
#430=PRODUCT_DEFINITION_FORMATION('',$,#434);
#431=APPLICATION_PROTOCOL_DEFINITION('international standard',
'automotive_design',2009,#432);
#432=APPLICATION_CONTEXT(
'Core Data for Automotive Mechanical Design Process');
#433=PRODUCT_CONTEXT('3D Mechanical Parts',#432,'mechanical');
#434=PRODUCT('TRIV160110','TRIV160110',$,(#433));
#435=PRESENTATION_STYLE_ASSIGNMENT((#436));
#436=SURFACE_STYLE_USAGE(.BOTH.,#437);
#437=SURFACE_SIDE_STYLE($,(#438));
#438=SURFACE_STYLE_FILL_AREA(#439);
#439=FILL_AREA_STYLE($,(#440));
#440=FILL_AREA_STYLE_COLOUR($,#441);
#441=COLOUR_RGB('',0.509803921568627,0.509803921568627,0.588235294117647);
ENDSEC;
END-ISO-10303-21;
